0
SECTION
2
HEADER
9
$INSUNITS
70
4
9
$ACADVER
1
AC1014
9
$HANDSEED
5
FFFF
0
ENDSEC
0
SECTION
2
TABLES
0
TABLE
2
VPORT
5
8
100
AcDbSymbolTable
0
ENDTAB
0
TABLE
2
LTYPE
5
5
100
AcDbSymbolTable
0
LTYPE
5
14
100
AcDbSymbolTableRecord
100
AcDbLinetypeTableRecord
2
BYBLOCK
70
0
0
LTYPE
5
15
100
AcDbSymbolTableRecord
100
AcDbLinetypeTableRecord
2
BYLAYER
70
0
0
ENDTAB
0
TABLE
2
LAYER
5
2
100
AcDbSymbolTable
70
2
0
LAYER
5
50
100
AcDbSymbolTableRecord
100
AcDbLayerTableRecord
2
0
70
0
6
CONTINUOUS
0
ENDTAB
0
TABLE
2
STYLE
5
3
100
AcDbSymbolTable
70
1
0
STYLE
5
11
100
AcDbSymbolTableRecord
100
AcDbTextStyleTableRecord
2
STANDARD
70
0
0
ENDTAB
0
TABLE
2
VIEW
5
6
100
AcDbSymbolTable
70
0
0
ENDTAB
0
TABLE
2
UCS
5
7
100
AcDbSymbolTable
70
0
0
ENDTAB
0
TABLE
2
APPID
5
9
100
AcDbSymbolTable
70
2
0
APPID
5
12
100
AcDbSymbolTableRecord
100
AcDbRegAppTableRecord
2
ACAD
70
0
0
ENDTAB
0
TABLE
2
DIMSTYLE
5
A
100
AcDbSymbolTable
70
1
0
ENDTAB
0
TABLE
2
BLOCK_RECORD
5
1
100
AcDbSymbolTable
70
1
0
BLOCK_RECORD
5
1F
100
AcDbSymbolTableRecord
100
AcDbBlockTableRecord
2
*MODEL_SPACE
0
BLOCK_RECORD
5
1B
100
AcDbSymbolTableRecord
100
AcDbBlockTableRecord
2
*PAPER_SPACE
0
ENDTAB
0
ENDSEC
0
SECTION
2
BLOCKS
0
BLOCK
5
20
100
AcDbEntity
100
AcDbBlockBegin
2
*MODEL_SPACE
0
ENDBLK
5
21
100
AcDbEntity
100
AcDbBlockEnd
0
BLOCK
5
1C
100
AcDbEntity
100
AcDbBlockBegin
2
*PAPER_SPACE
0
ENDBLK
5
1D
100
AcDbEntity
100
AcDbBlockEnd
0
ENDSEC
0
SECTION
2
ENTITIES
0
CIRCLE
5
100
100
AcDbEntity
8
0
100
AcDbCircle
10
-5
20
-4.0000000596046448
30
63.20000000000001
40
5.7500000000000018
210
0
220
-0
230
1
0
LINE
5
101
100
AcDbEntity
8
0
100
AcDbLine
10
82.000001817941666
20
-4.0000000298023206
30
63.20000000000001
11
59.000001817941659
21
-4.0000000298023206
31
63.20000000000001
0
ARC
5
102
100
AcDbEntity
8
0
100
AcDbCircle
10
59.000001817941659
20
-3.0000000298023211
30
63.20000000000001
40
0.99999999999999645
210
0
220
0
230
1
100
AcDbArc
50
180
51
270
0
LINE
5
103
100
AcDbEntity
8
0
100
AcDbLine
10
58.000001817941666
20
-3.0000000298023211
30
63.20000000000001
11
58.000001817941666
21
3.9999999701976785
31
63.20000000000001
0
ARC
5
104
100
AcDbEntity
8
0
100
AcDbCircle
10
59.000001817941659
20
3.9999999701976785
30
63.20000000000001
40
1.0000000000000004
210
0
220
-0
230
1
100
AcDbArc
50
90
51
180
0
LINE
5
105
100
AcDbEntity
8
0
100
AcDbLine
10
59.000001817941659
20
4.9999999701976785
30
63.20000000000001
11
82.000001817941666
21
4.9999999701976785
31
63.20000000000001
0
ARC
5
106
100
AcDbEntity
8
0
100
AcDbCircle
10
82.000001817941666
20
3.9999999701976785
30
63.20000000000001
40
0.99999999999999645
210
-0
220
0
230
1
100
AcDbArc
50
0
51
90
0
LINE
5
107
100
AcDbEntity
8
0
100
AcDbLine
10
83.000001817941666
20
3.9999999701976781
30
63.20000000000001
11
83.000001817941666
21
-3.0000000298023215
31
63.20000000000001
0
ARC
5
108
100
AcDbEntity
8
0
100
AcDbCircle
10
82.000001817941666
20
-3.0000000298023211
30
63.20000000000001
40
0.99999999999999978
210
-0
220
0
230
1
100
AcDbArc
50
270
51
360
0
LINE
5
109
100
AcDbEntity
8
0
100
AcDbLine
10
113.00000169873236
20
-5.9000000298023245
30
63.20000000000001
11
98.279850453605476
21
-5.9000000298023245
31
63.20000000000001
0
ARC
5
110
100
AcDbEntity
8
0
100
AcDbCircle
10
98.279850453605476
20
-4.9000000298023245
30
63.20000000000001
40
0.99999999999999645
210
0
220
0
230
1
100
AcDbArc
50
180
51
270
0
LINE
5
111
100
AcDbEntity
8
0
100
AcDbLine
10
97.279850453605476
20
-4.9000000298023245
30
63.20000000000001
11
97.279850453605476
21
2.5999999701976773
31
63.20000000000001
0
ARC
5
112
100
AcDbEntity
8
0
100
AcDbCircle
10
98.279850453605491
20
2.5999999701976773
30
63.20000000000001
40
0.99999999999999978
210
0
220
-0
230
1
100
AcDbArc
50
90
51
180
0
LINE
5
113
100
AcDbEntity
8
0
100
AcDbLine
10
98.279850453605491
20
3.5999999701976773
30
63.20000000000001
11
113.00000169873238
21
3.5999999701976781
31
63.20000000000001
0
ARC
5
114
100
AcDbEntity
8
0
100
AcDbCircle
10
113.00000169873238
20
2.5999999701976773
30
63.20000000000001
40
0.99999999999999645
210
0
220
0
230
1
100
AcDbArc
50
0
51
90
0
LINE
5
115
100
AcDbEntity
8
0
100
AcDbLine
10
114.00000169873238
20
2.5999999701976768
30
63.20000000000001
11
114.00000169873238
21
-4.9000000298023254
31
63.20000000000001
0
ARC
5
116
100
AcDbEntity
8
0
100
AcDbCircle
10
113.00000169873236
20
-4.9000000298023245
30
63.20000000000001
40
0.99999999999999978
210
-0
220
0
230
1
100
AcDbArc
50
270
51
360
0
LINE
5
117
100
AcDbEntity
8
0
100
AcDbLine
10
-35.000000521540642
20
13.900000208616255
30
63.20000000000001
11
-35.000000521540642
21
-21.900000327825548
31
63.20000000000001
0
LINE
5
118
100
AcDbEntity
8
0
100
AcDbLine
10
-35.000000521540642
20
-21.900000327825548
30
63.20000000000001
11
137.00000204145908
21
-21.900000327825548
31
63.20000000000001
0
LINE
5
119
100
AcDbEntity
8
0
100
AcDbLine
10
137.00000204145908
20
-21.900000327825548
30
63.20000000000001
11
137.00000204145908
21
13.900000208616255
31
63.20000000000001
0
LINE
5
120
100
AcDbEntity
8
0
100
AcDbLine
10
137.00000204145908
20
13.900000208616255
30
63.20000000000001
11
-35.000000521540642
21
13.900000208616255
31
63.20000000000001
0
ENDSEC
0
SECTION
2
OBJECTS
0
DICTIONARY
5
C
100
AcDbDictionary
3
ACAD_GROUP
350
D
3
ACAD_MLINESTYLE
350
17
0
DICTIONARY
5
D
100
AcDbDictionary
0
DICTIONARY
5
1A
330
C
100
AcDbDictionary
0
DICTIONARY
5
17
100
AcDbDictionary
0
ENDSEC
0
EOF
